Александр Щербина
МАДЬЯРКА

Проигрыш:

-----------------------------------------------------------
---8--------7-------5--------4--------5-------4_5_4--    
--------0-------0-------0--------0-------0-------------
-----------------------------------------------------------       повторить 2  РАЗА
--------------------0------------------0-----------------    
---0--------------------------0----------------0--------    

-------------------------------------------------------------0------------------------------------
-------0--4-------0_4--5------4------0_4_5----0-------------0------0--------0-----0-----0--
--5-----------5-------------5------5--------------------0---------0---------5-----4-----3-----
--------------------------------------------------------------------------------------------------
--------------------------------------------------------------------------------------------------
--0------0-------------0-------------------------0------------------------------------------

Adim(I)    Adim(IV)   Em      Em/G6 Em/F#6 Em/E6

Adim(IV)    Adim(I)    Em   Em/G4 Em/F#4 Em/E4


                Adim(I)            Adim(IV)
Солнце к лесу клонит,
           Em               Em/G4. Em/F#4 Em/E4
Отливает медью...
         Adim(IV)       Adim(I)
Нагулялись кони
            Em                    Em/G6 Em/F#6 Em/E6
По венгерским медьё,

По небесной хляби,
По костям стрелецким...
Мне бы сердце - я бы
Загубил бы сердце.

От воды на выстрел,
Да отрава рядом...
Я б и яду выпил,
Кабы дали яду.

Мне и час отсрочка -
Настрелялся вдоволь...
Скоротать бы ночку
У мадьярки вдовой.
Да с дикарской пляской,
Да с гитарным звоном...
На платке мадьярском
Хороши драконы!

Посидеть бы рядом,
Подышать на ушко...
На душе коряво,
А в объятьях душно.
Одному-то худо,
А вдвоём - так вдвое...
Отомстит нам утро
За колечко вдовье -
Кровью на запястьях
Да стеклом разбитым...

На платке мадьярском
Все драконы сыты.


  Adim (I)      (IV)        (VII)
-----2-----    ---5---     ---8---
-----1-----    ---4---     ---7---
-----2-----    ---5---     ---8---
-----1-----    ---4---     ---7---
-----х-----    ---х---     ---х---
-----х-----    ---х---     ---х---
на главную страницу
назад вверх